Start Kurser Gitarrackord Gitarrlåtar Verktyg Annat

7. Rockackord / Kvintackord / Powerchords

Du kommer att lära dig

Detta är en omfattande lektion som förbereder dig inför barréackorden, vilket förmodligen kommer att vara det svåraste momentet i kursen (och samtidigt det roligaste och mest givande=))

 

Ostämd? - Stäm gitarren!

Stäm gitarren online här (öppnas i nytt fönster).

Gilla denna sida =)

Tipsa dina vänner och stöd min sida genom att gilla eller +1 denna sida.

Reminder...

En sista lilla reminder (kanske sista gången jag säger det?):

Det är mycket viktigt! Men nog om det nu - dags att gå på rockackorden!

Kvintackord / Powerchords / Rockackord

Nu kommer ni att få lära er något som för väldigt många är en sk "aha"-upplevelse. Den store Steve Morse (den nuvarande Deep Purple gitarristen) sa själv att allting snappade loss för honom när han lärde sig rockackorden. På svenska heter dem kvint/rockackord och på engelska heter dem powerchords/fifth chords. Varför de kallas rockackord kommer ni själva att komma underfund med.

Det speciella med dessa ackorden är att de kan tas överallt på greppbrädan, och grundtonen ligger alltid på pekfingret.

Här finns de olika fyra olika typerna, varav de två första är de som används mest.

355XXX (A5)

X355XX (C5)

XX356X (F5)

XXX366 (Bb5)

Här demonstrerar jag dem på slumpmässiga band i ett greppbrädediagram. Tänk på att det är själva "mönstret" som du kan flytta runt vart du vill, bara du tar rätt mönster på rätt plats. Med plats menar jag den strängen du har pekfingret på.

En färg demonstrerar samma mönster som ackorden ovan (men dock inte samma ackord eftersom de ligger på olika band)

Köp bra musikböcker på Notlagret.se!

När jag lärde mig rockackorden brukade jag bara lattja runt lite på greppbrädan med dem - man lär verkligen känna gitarren bättre på så sätt. Tänk även på att du i princip kan spela alla låtar i rockackord, men oftast krävs det mer avancerade ackord för att det ska låta bättre (såsom hela moll eller durackord).

Så länge du behåller ackordformen (dvs håller rätt finger på rätt sträng med rätt band-avstånd från varandra). Rockackorden som är skrivna ovan är således dina första flyttbara ackord - grattis=).

Att namnge kvintackorden

Om du vill veta vad det är för något som du egentligen spelar måste du lära dig vilka toner som ligger på vilka strängar. Det ser du på den här bilden. Det bästa är egentligen att du redan nu börjar memorera alla tonerna på greppbrädan, men börja med E, A och D-strängarna. Klicka här för att komma till en guide som visar dig hur du gör det på bästa sätt!

En bra metod för att hålla reda på vart det finns halvsteg med förtecken och vart det itne finns (alltså mellan BC och EF) är att tabbla den kromatiska skalan upp och ner. Gå till lektion 5 för att läsa mer om den kromatiska skalan och förtecken om du inte hänger med.

uppåt
A A# B C C# D D# E F F# G G# (A)

neråt
A Ab G Gb F E Eb D Db C B Bb (A)

Här kommer alla tonerna på greppbrädan. Diagrammet visar alltså vilka toner som ligger på vilket band (som en gitarr sedd ovanifrån).

Tänk på att allting börjar om vid tolfte bandet.

Klicka på bilden för en större version!

(Denna bild finns alltid tillgänglig under Verktyg - Greppbrädans toner)

Grundtonen ligger alltid på pekfingret (om ni tar ackorden som mig och majoriteten). Ackordet heter då grundtonen + en 5.

Följande ackord

X133XX

Heter därför A#5.

Hittils har vi ju enbart spelat trubadurackord, ackord som sällan har toner som sträcker sig längre än fjärde bandet. Nu har ni dock hela greppbrädan som ni kan spela på med dessa enkla ackord.

Köp bra musikböcker på Notlagret.se!

Jag säger enkla, eftersom de enbart består av tre toner (dock är två av dem samma ton, fast en oktav emellan). Tänk på att det kan ta några veckor innan ni kommer att kunna bemästra dem "rent" över hela greppbrädan.

Om ni ännu inte riktigt hajat till så förklarar jag precis hur ackorden fungerar i videon. Jag visar även de olika sätten man kan greppa dem på.

Här kommer ackorden jag skrev ovan igen.

355XXX

X355XX

XX356X

XXX366

 

Är det då inte dags att spela lite ordentlig musik med dessa rockackord?, tänker du.

Självklart! Här kommer två klassiker.

 

 

Nirvana - Polly

Väldigt skön låt av Nirvana.

Tabulatur
vers
----------------------------------------
----------------------------------------
---------------0--77-X-5---5-X-0-----o--
-2--X--0--55-X-0--77-X-5---5-X-0-----o--
-2--X--0--55-X-0--55-X-3---3-X-0--------
-0--X--0--33-X-----------------0--------

refräng
----------------------------------------
----------------------------------------
--77-X-5--5--X--0-------3---3--X-0---o--
--77-X-5--5--X--0--55-X-3---3--X-0---o--
--55-X-3--3--X--0--55-X-1---1--X-0------
----------------0--33-X----------0------


I bryggan är det bara en bas som spelar följande

-------------------------
-------------------------
--------------55-3-333---
-00-0--33-3--------------


Klicka här för text till låten.

Green Day - When I Come Around

Egentligen lyssnar jag inte så mycket på Green Day längre, men jag tycker att de är en bra grupp att dra exempel av eftersom det är punkrock och inte punk (alltså lite värdigare musik än punk enligt mig, men vi är alla olika och har olika smak). De är mycket flitiga med rockackord.

Här är versen till låten. Anledningen till att jag bara använder detta stycke är för att jag vill introducera en ny spelteknik.

--------------------------------------------------------------
--------------------------------------------------------------
--------------------------7----------9-X--5---5---555-------o-
--------5---------------- 7----------9-X--5---5---555--0----o-
--------5----------p5-p5--5-p5p5--p7-7-X--3---3---333--0------
--p3-p3-3--p3p3----------------------------------------0------

Klicka här för text till låten.

Som ni ser står där ett "p" före visa siffror. Egentligen ska där stå "pm" (fast det tog för mycket plats), vilket står för palm mute. Det är en speciellt spelteknik då du dämpar en sträng genom att lägga lillfingersidan av handflatan på den berörda strängen precis vid stallet, och spelar den. Detta låter bäst på elgitarr, men funkar minst lika bra på akustisk. Jag kommer att spela låten både på elgitarr och på akustisk för att visa.

Lyssna gärna på fler Green Day-låtar och försök att plocka ut rockackorden från dem.

Instruktion för båda låtarna

 









Bonus-låtar

Många mejlade mig och bad att jag skulle lägga upp lite fler exempel på låtar med rockackord. Här kommer därför några bonuslåtar med instruktioner åt er=). Det är bara att klicka och spela!

AC/DC - TNT
Deep Purple - Smoke on the water
The White Stripes - Hypnotize

 

 

Köp bra musikböcker på Notlagret.se!

Fingerspelsövning - Marcus' fingerspelslåt

Nu ska ni få lära er ett enkelt arpeggiostycke som jag komponerat =). Det kommer vara lite svårt i början men ni kommer kunna spela det om ni övat förra arpeggioövningarna ordentligt. Det består helt enkelt av två olika delar som båda två repeteras två gången, och sedan en finish!

Jag visar i videon under tabulaturen hur du spelar, dessutom återfinns MIDI-filer, GP4-fil och txt.fil under tabulaturen.

repetera 2x
E||-----------2--------------------------|-----------0--------------------------|
B||--------3-----3-----------3--------3--|--------3-----3-----------3--------3--|
G||-----2-----------2-----0--------0-----|-----2-----------2-----0--------0-----|
D||--0-----------------------------------|--0-----------------------------------|
A||--------------------3--------2--------|--------------------3--------2--------|
E||--------------------------------------|--------------------------------------|


-----------2--------------------------|-----------3-----------------3---------||
--------3-----3-----------3--------3--|--------3-----3-----------3-----3------||
-----2-----------2-----0--------0-----|-----0-----------0-----0-----------0--o||
--0-----------------------------------|--------------------------------------o||
--------------------3--------2--------|--------------------2------------------||
--------------------------------------|--3------------------------------------||


repetera 2x
---------------------------------------|-----------------------------0---------||
------------0-----------------1--------|-----------0--------------0-----0------||
*--------2-----2-----------2-----2-----|--------0-----0--------0-----------0--o||
*-----2-----------------2-----------2--|-----2-----------2--------------------o||
---0--------------2--3-----------------|--------------------2------------------||
---------------------------------------|--0------------------------------------||


finish
-----------2--------------------------|--3----------------||
--------3-----3-----------3--------3--|--3----------------||
-----2-----------2-----0--------0-----|--0----------------||
--0-----------------------------------|--0----------------||
--------------------3--------2--------|--2----------------||
--------------------------------------|--3----------------||

MIDI:
Långsam | normal | snabb

Guitarpro4-fil
TXT-fil

 

 

 

 

 

 

 

 

 

 

 

 

Såja

Det var allt för denna lektion. Innan du går vidare rekommenderar jag att du:

← Föregående lektionNästa lektion    →