Start Kurser Gitarrackord Gitarrlåtar Verktyg Annat

6. Övningar för arpeggio teknik, ackorden Gm Cm Bm

Du kommer att lära dig

 

 

 

Ostämd? - Stäm gitarren!

Stäm gitarren online här (öppnas i nytt fönster).

Gilla denna sida =)

Tipsa dina vänner och stöd min sida genom att gilla eller +1 denna sida.

Nya ackord

 

I detta fall är lägsta tonen i ackordet Bm inte grundtonen. Egentligen brukar man ta Bm, Cm och Gm på lite annorlundare sätt som du ska få lära dig senare - i barréform!

PIMA

Någonting som du behöver känna till, speciellt om du sedan vill lära dig klassisk gitarrmusik, är benämningen på fingrarna du plockar strängarna med.

Tumme = P (latin - pollux)
Pengfinger = I (latin - indicis)
Långfinger = M (latin - medius)
Ringfinger = A (latin - annularis)

Lillfingret använder man ytterst sällen eller aldrig, och har således ingen beteckning (om den skulle ha haft en beteckning vore det M - för digiti minimi =))

Eller bildligt talat:

pima

Arpeggioövningar

Följande övningar är alla jättebra för att öka din plock-teknik. Tänk på att tillämpoa övningarna på alla andra ackord du kan för att din träning ska bli så effektivt som möjligt. När du gjort dem tillräckligt mång akgånger kommer du att kunna göra dem så pass automatiskt att du kan kolla på TV samtidigt.

Viktigt att tänka på

1. Det är enbart fingrarna som ska röra på sig när du plockar. Kolla så att du inte rör hela armen varje gång du plockar en sträng. Det är svårt i början, men det ger resultat senare, jag lovar.

2. Se till att du inte plockar "under" strängen, dvs är "på väg in i ljudhålet" med fingret du plockar med. Tryck ner strängen (alltså tryck strängen mot ljudhålet), så att du får grepp om strängen med fingret. Sedan drar du strängen uppåt, och släpper den. Denna teknik tillämpar du även om du spelar med naglar, fast då hjälper nageln till dels med precision och ljudförstärkning.

3. Du måste vara försiktig så att du inte snuddar vid någon annan sträng av misstag. Det är bara att öva! Börja långsamt, sedan ökar du tempot gradvis.

4. Håll ackorden medan du spelar arpeggiot så att tonerna klingar ut ordentligt!

5. Tänk på att tummen i regel har hand om E, A och D strängen och att de andra tre fingrarna har hand om G, B, och e strängen. Dvs spela med så många fingrar som möjligt! jag hr angett med "PIMA" instruktioner hur du ska spela.

Övning 1

Denna övningen är ju bekant sedan innan, men det är bara att repetera!

--vp--i--m-a-m-i-p-i---m-a--m-i-p--osv.
E||-----------0--------------|-----0-----------------0--|-----------------0--------|
B||--------0-----0-----------|--0-----0-----------0-----|--0-----------0-----0-----|
G||-----0-----------0-----0--|-----------0-----0--------|-----0-----0-----------0--|
D||--------------------------|--------------------------|--------------------------|
A||--------------------2-----|--------------------------|--------2-----------------|
E||--0-----------------------|--------------0-----------|--------------------------|

-----------3--------------|-----3-----------------3--|-----------------3--------||
--------3-----3-----------|--3-----3-----------3-----|--3-----------3-----3-----||
-----0-----------0-----0--|-----------0-----0--------|-----0-----0-----------0--||
--------------------------|--------------------------|--------------------------||
--------------------2-----|--------------------------|--------2-----------------||
--3-----------------------|--------------3-----------|--------------------------||

Ackorden i detta fall: Em, G

Lyssna på MIDI

Övning 2

Denna övar upp din fingerfärdighet och tekniken att spela två toner samtidigt! Detta är verkligen en övning som lämpar sig bra som uppvärmning innan du ska spela fingerspel. Tänk

--vavvmvivm-------------------------------------------avvmvvivvmva
--vpvvpv.pvp...osv ------------------------------------pvpvv-vvpvp...osv
E||--3-----------3-----------|--3-----------3-----------|--0-----------0-----------|
B||-----3-----3-----3-----3--|-----3-----3-----3-----3--|-----1-----1-----1-----1--|
G||--------0-----------0-----|--------0-----------0-----|--------0-----------0-----|
D||--------0-----------0-----|--------0-----------0-----|-----2-----2-----2-----2--|
A||-----2-----2-----2-----2--|-----2-----2-----2-----2--|--3-----------3-----------|
E||--3-----------3-----------|--3-----------3-----------|--------------------------|


--0-----------0-----------|--0-----------0---------||
-----1-----1-----0-----0--|-----0-----0------------||
--------0-----------0-----|--------0---------------||
-----2-----2--------2-----|--------2---------------||
--3--------------2-----2--|-----2-----2------------||
--------------0-----------|--0-----------0---------||

Ackorden är: G, C, Em - pröva samma övning med Am, E, A, etc.

Lyssna på MIDI


Köp bra musikböcker på Notlagret.se!


Övning 3

Denna övning är till för att du ska tänka till lite extra och försöka variera arpeggiospelet, även när du enbart bara övar.

--vpvaav-ivm.-p-i-a-m--vpvaav-ivm.-p-i-a-m... osv
E||-----0--------------0-----|-----0--------------0-----|-----0--------------0-----|
B||-----------1-----------1--|-----------1-----------1--|-----------1-----------1--|
G||--------2--------2--------|--------2--------2--------|--------0--------0--------|
D||--------------2-----------|--------------2-----------|--------------2-----------|
A||--0-----------------------|--0-----------------------|--3-----------------------|
E||--------------------------|--------------------------|--------------------------|

-----0--------------0-----||
-----------1-----------1--||
--------0--------0--------||
--------------2-----------||
--3-----------------------||
--------------------------||

Lyssna på MIDI

Övning 4 - arpeggiospel med basgång

Detta är ett enklare arpeggiospel med basgång. I fortsättningen kommer jag inte att märka ut med PIMA med hur du ska spela, eftersom det är relativt enkelt att lista ut det själv, om inte låten är väldigt avancerad. Tänk bara på att du ska använda så många fingrar som möjligt!

E||-----------0--------------|-----0-----------------0--|-----------------0--------|
B||--------1-----1-----------|--1-----1-----------1-----|--1-----------1-----1-----|
G||-----0-----------------2--|-----------------0--------|-----------2--------------|
D||-----------2--------------|-----2-----------------2--|-----------------2--------|
A||--3--------------2--0-----|-----------2--3-----------|-----2--0--------------2--|
E||--------------------------|--------------------------|--------------------------|

-----------3--------------|-----0-----------------3--|-----------------0--------|
--------3-----3-----------|--0-----0-----------3-----|--3-----------0-----0-----|
-----0-----------------0--|-----------------0--------|-----------0--------------|
-----------0--------------|-----2-----------------0--|-----------------2--------|
--------------------------|--------------------------|--------------------------|
--3--------------2--0-----|-----------2--3-----------|-----2--0--------------2--|


-----------3--------0----||
--------3-----3-----0----||
-----0-----------0--0----||
--------------------2----||
--------------------2----||
--3-----------------0----||

Lyssna på MIDI


Köp bra musikböcker på Notlagret.se!


Övning 5 - vals-spel

Det är nyttigt att veta hur man spelar vals på gitarren - kul om man vill spela midsommarvisor osv t. ex.

Kom ihåg att räkna 1-2-3.

E||-------3----3---------3----3----|-------0----0---------0----0----|
B||-------3----3---------3----3----|-------0----0---------0----0----|
G||-------0----0---------0----0----|-------0----0---------0----0----|
D||--------------------------------|--------------------------------|
A||--------------------------------|--------------------------------|
E||--3--------------3--------------|--0--------------0--------------|

-------3----3---------3----3----|-------0----0---------0----0----|
-------3----3---------3----3----|-------0----0---------0----0----|
-------0----0---------0----0----|-------0----0---------0----0----|
--------------------------------|--------------------------------|
--------------------------------|--------------------------------|
--3--------------3--------------|--0--------------0--------------|

-------0----0---------0----0----|-------2----2---------2----2----|--3----------------|
-------1----1---------1----1----|-------3----3---------3----3----|--3----------------|
-------0----0---------0----0----|-------2----2---------2----2----|--0----------------|
--------------------------------|--0--------------0--------------|--0----------------|
--3--------------3--------------|--------------------------------|--2----------------|
--------------------------------|--------------------------------|--3----------------|

-------------------|-------3----3----3--------------|-------0----0----0--------------|
-------------------|-------3----3---------3---------|-------0----0---------0---------|
-------------------|-------0----0--------------0----|-------0----0--------------0----|
-------------------|--------------------------------|--------------------------------|
-------------------|--------------------------------|--------------------------------|
-------------------|--3--------------3--------------|--0--------------0--------------|

-------3----3--------------3----|-------0----0--------------0----|
-------3----3---------3---------|-------0----0---------0---------|
-------0----0----0--------------|-------0----0----0--------------|
--------------------------------|--------------------------------|
-----------------2--------------|--------------------------------|
--3-----------------------------|--0--------------0--------------|

-------0----0----0--------------|-------2----2----2--------------|--3----------------||
-------1----1---------1---------|-------3----3---------3---------|--3----------------||
-------0----0--------------0----|-------2----2--------------2----|--0----------------||
--------------------------------|--0--------------0--------------|--0----------------||
--3--------------3--------------|--------------------------------|--2----------------||
--------------------------------|--------------------------------|--3----------------||

Ladda ner PDF
Lyssna på MIDI

 

Videodemonstration

Jag visar hur du ska genomföra övningarna!

 

 

 

 

 

 

 








Spansk ballad

Slutligen för att knyta ihop dina arpeggiokunskaper så vill jag att du ska försöka lära dig denna vackra låt - en spansk ballad! Jag är övertygad om att du har hört den förut, och att både du och dina nära och kära kommer att tycka om den.

Klicka här för att lära dig låten.

Fler arpeggiolåtar =)

Metallica - Nothing Else Matters

Led Zeppelin - Stairway To Heaven

Plain White T's - Hey there Delilah

Crash Test Dummies - Mmmh mmmh mmmh mmmh

Green Day - Good Riddance (Time of your life)

Fred Åkerström - Jag Ger Dig Min Morgon

Jeff Buckley (Leonard Cohen) - Hallelujah

 

Såja

Det var allt för denna lektion. Innan du går vidare rekommenderar jag att du:

 

← Föregående lektion Nästa lektion    →