Start Kurser Gitarrackord Gitarrlåtar Verktyg Annat

11. G-barré form, Pearl Jam

Du kommer att lära dig

 

Ostämd? - Stäm gitarren!

Stäm gitarren online här (öppnas i nytt fönster).

Gilla denna sida =)

Tipsa dina vänner och stöd min sida genom att gilla eller +1 denna sida.

Näst sista lektionen

Detta är näst sista lektionen i nybörjarkursen. Låter det sorgligt? Misströsta icke! Kursen fortsätter fast med lite mer avancerade moment som improvisation. Dock måste ni lära er lite teori först - det kommer ni ha nytta av sen. Innan det ska vi dock sluta vår barrécirkel med G-formen, och dessutom ha skoj med två, enligt mig, riktigt sköna låtar. Den andra låten kommer i nästa lektion (tyckte det var för mustigt att printa båda två här).

G barré-form

G barré-formen följer exakt samma princip som de andra barréformerna och jag kommer helt enkelt bara bildigt presentera det - om ni förstått det jag presenterat innan så borde inte detta vara något problem! Om det dock är ett problem - mejla!

Vanliga G-ackord

G-barréformer

(det går bra att enbart fokusera pekfingret på D, G och B-strängen också)

Notis: Dessa ackord är svåra att ta, fast du kommer ha nytta i teorin att det finns A, E, C, D och G barréformer. De utgör nämligen ett system som kallas CAGED (inburad på engelska, lätt att komma ihåg trots att det enbart är en tillfällighet att de bildar just det ordet). Systemet är bara ett sätt att dela in en skala i olika "boxar", det beskriver även gitarrens musikaliska uppbyggnad - mycket fiffigt faktiskt! Mer om det kommer senare under teorikursen.

Några exempel på G-durbarréform


E D A


e-12-10--5-----
B--9--7--2-----
G--9--7--2-----
D--9--7--2-----
A-11--9--4-----
E-12-10--5-----

Några exempel på G-mollbarréform


A#m Dm Bm


e--6-----10----7-----
B--3------7----4-----
G--3------7----4-----
D--3------7----4-----
A--4------8----5-----
E--6-----10----7-----

Pearl Jam - Elderly Woman Behind the Counter In a Small Town

Pearl Jam är enligt mig ett utav de bästa banden som finns. Låt inte det långa namnet på låten avskräcka er - den är inte särskilt svår att spela.

Ackorden i låten

D Cadd9 G A Em Em7


e--2--3----3--0---0--0--
B--3--3----3--3---0--3--
G--2--0----0--3---0--0--
D--0--2----0--3---2--0--
A-----3----2--0---2--2--
E----------3------0--0--

Spelstil

Här följer tabulatur till låtens spelstil.
Ladda ner som TXT-dokument

Vers & refräng
E||--2--2-2-2-2-3--3-3-3-3-3--3-3-|--3-3-3--3-3-3-3-3--3-3-3-3-3--|
B||--3--3-3-3-3-3--3-3-3-3-3--3-3-|--3-3-3--3-3-3-3-3--3-3-3-3-3--|
G||--2--2-2-2-2-0--0-0-0-0-0--0-0-|--0-0-0--0-0-0-0-0--0-0-0-0-0--|
D||--0--0-0-0-0-2--2-2-2-2-0--0-0-|--0-0-0--0-0-0-0-2--2-2-2-2-2--|
A||-------------3--3-3-3-3-2--2-2-|--2-2-2--2-2-2-2-3--3-3-3-3-3--|
E||------------------------3--3-3-|--3-3-3--3-3-3-3---------------|

--3-3-3-3-3--3-3-3-3-3--3-3-3-3-|--0--0-0-0-0-0--0-0-0-0-3--3-3---|
--3-3-3-3-3--3-3-3-3-3--3-3-3-3-|--2--2-2-2-2-2--2-2-2-2-3--3-3---|
--0-0-0-0-0--0-0-0-0-0--0-0-0-0-|--2--2-2-2-2-2--2-2-2-2-0--0-0-o-|
--2-2-2-2-0--0-0-0-0-0--0-0-0-0-|--2--2-2-2-2-2--2-2-2-2-2--2-2-o-|
--3-3-3-3-2--2-2-2-2-2--2-2-2-2-|--0--0-0-0-0-0--0-0-0-0-3--3-3---|
----------3--3-3-3-3-3--3-3-3-3-|---------------------------------|

Lyssna på MIDI-fil

Stick innan refrängen
E||--0--0-0-0-0--0--0-0-0-0--3--3-3-|-3-3--3--3-3-3-3--0--0-0-0-0--0--|
B||--2--2-2-2-2--2--2-2-2-2--3--3-3-|-3-3--3--3-3-3-3--2--2-2-2-2--2--|
G||--2--2-2-2-2--2--2-2-2-2--0--0-0-|-0-0--0--0-0-0-0--2--2-2-2-2--2--|
D||--2--2-2-2-2--2--2-2-2-2--2--2-2-|-2-2--2--2-2-2-2--2--2-2-2-2--2--|
A||--0--0-0-0-0--0--0-0-0-0--3--3-3-|-3-3--3--3-3-3-3--0--0-0-0-0--0--|
E||---------------------------------|---------------------------------|

--0-0-0-0--3--3-3-3-3--3--3-3-3-3-|--0--0-0-0-0--0--0-0-0-0--3--3-3-|
--2-2-2-2--3--3-3-3-3--3--3-3-3-3-|--2--2-2-2-2--2--2-2-2-2--3--3-3-|
--2-2-2-2--0--0-0-0-0--0--0-0-0-0-|--2--2-2-2-2--2--2-2-2-2--0--0-0-|
--2-2-2-2--2--2-2-2-2--2--2-2-2-2-|--2--2-2-2-2--2--2-2-2-2--2--2-2-|
--0-0-0-0--3--3-3-3-3--3--3-3-3-3-|--0--0-0-0-0--0--0-0-0-0--3--3-3-|
----------------------------------|---------------------------------|

--3-3--3--3-3-3-3--0--0-0-0-0--0--|--0-0-0-0--0--0-0-0-0--0--0-0-0-0-|
--3-3--3--3-3-3-3--0--0-0-0-0--0--|--0-0-0-0--3--3-3-3-3--3--3-3-3-3-|
--0-0--0--0-0-0-0--0--0-0-0-0--0--|--0-0-0-0--0--0-0-0-0--0--0-0-0-0-|
--2-2--2--2-2-2-2--2--2-2-2-2--2--|--2-2-2-2--0--0-0-0-0--0--0-0-0-0-|
--3-3--3--3-3-3-3--2--2-2-2-2--2--|--2-2-2-2--2--2-2-2-2--2--2-2-2-2-|
-------------------0--0-0-0-0--0--|--0-0-0-0--0--0-0-0-0--0--0-0-0-0-|

Lyssna på MIDI-fil

Ladda ner GP4-fil

Jag demonstrerar ackord och spelsätt.

 

Köp bra musikböcker på Notlagret.se!

Låttext med ackord

Vers1
D Cadd9 G Cadd9 G
I seem to recognize your face
D Cadd9 G Cadd9 G
Haunting, familiar, yet I can't seem to place it
D Cadd9 G Cadd9 G
Cannot find the candle of thought to light your name
D Cadd9 G Cadd9 G
Lifetimes are catching up with me

Stick (brygga)
A Cadd9 A Cadd9 A
All these changes taking place, I wish I'd seen the place
Cadd9 Em Em7
But no one's ever taken me

Refräng
D Cadd9 G Cadd9 G
Hearts and thoughts they fade, fade away... (2x)

(sedan följer låten samma ackordmönster)

Vers2

I swear I recognize your breath
Memories like fingerprints are slowly raising
Me you wouldnt recall, for I'm not my former
It's hard when, your stuck upon the shelf

Stick 2
I changed by not changing at all, small town predicts my fate
Perhaps that's what no one wants to see

Vers 3
I just want to scream...hello...
My god its been so long, never dreamed you'd return
But now here you are, and here I am
Hearts and thoughts they fade...away...

Refräng/Outro
Hearts and thoughts they fade, fade away... (2x)
Hearts and thoughts they fade...away...
Hearts and thoughts they fade, fade away... (3x)
Hearts and thoughts they fade...

Källa: LetsSingIt

Såja

Då var denna lektionen över. Nästa lektion är helt och hållet en bonuslektion där du får lära dig en riktigt vanlig akustisk låt som man måste kunna spela :). Innan du går vidare:.

← Föregående lektionNästa lektion    →